ISO-10303-21;
HEADER;
FILE_DESCRIPTION (( 'STEP AP214' ),
    '1' );
FILE_NAME ('2012340.stp',
    '2023-03-06T12:00:25',
    ( '' ),
    ( '' ),
    'SwSTEP 2.0',
    'SolidWorks 2022',
    '' );
FILE_SCHEMA (( 'AUTOMOTIVE_DESIGN' ));
ENDSEC;

DATA;
#1 = ORIENTED_EDGE ( 'NONE', *, *, #62, .F. ) ;
#2 = CARTESIAN_POINT ( 'NONE',  ( 0.000000000000000000, 0.9750139512978862610, 0.000000000000000000 ) ) ;
#3 = DIRECTION ( 'NONE',  ( 0.000000000000000000, 0.000000000000000000, 1.000000000000000000 ) ) ;
#4 = ADVANCED_FACE ( 'NONE', ( #279, #349 ), #112, .T. ) ;
#5 = FACE_OUTER_BOUND ( 'NONE', #402, .T. ) ;
#6 = AXIS2_PLACEMENT_3D ( 'NONE', #415, #143, #385 ) ;
#7 = PRODUCT_RELATED_PRODUCT_CATEGORY ( 'part', '', ( #202 ) ) ;
#8 = DIRECTION ( 'NONE',  ( 0.000000000000000000, -1.000000000000000000, 0.000000000000000000 ) ) ;
#9 = MANIFOLD_SOLID_BREP ( 'DeleteFace2', #43 ) ;
#10 = CARTESIAN_POINT ( 'NONE',  ( 0.000000000000000000, 3.903051141389604073, 10.95000029346399195 ) ) ;
#11 = DIRECTION ( 'NONE',  ( -0.000000000000000000, 1.000000000000000000, -0.000000000000000000 ) ) ;
#12 = ORIENTED_EDGE ( 'NONE', *, *, #148, .T. ) ;
#13 = ORIENTED_EDGE ( 'NONE', *, *, #51, .T. ) ;
#14 = CARTESIAN_POINT ( 'NONE',  ( 0.000000000000000000, 2.602085213965210642E-15, 0.000000000000000000 ) ) ;
#15 = CARTESIAN_POINT ( 'NONE',  ( 0.000000000000000000, 12.65000000000000391, 0.000000000000000000 ) ) ;
#16 = SURFACE_STYLE_USAGE ( .BOTH. , #19 ) ;
#17 = AXIS2_PLACEMENT_3D ( 'NONE', #309, #169, #277 ) ;
#18 = CARTESIAN_POINT ( 'NONE',  ( 0.000000000000000000, 3.200000000000005063, 10.95000029346401149 ) ) ;
#19 = SURFACE_SIDE_STYLE ('',( #379 ) ) ;
#20 = ADVANCED_FACE ( 'NONE', ( #174, #313 ), #204, .T. ) ;
#21 =( NAMED_UNIT ( * ) PLANE_ANGLE_UNIT ( ) SI_UNIT ( $, .RADIAN. ) );
#22 = PRESENTATION_LAYER_ASSIGNMENT (  '', '', ( #374 ) ) ;
#23 = EDGE_LOOP ( 'NONE', ( #384 ) ) ;
#24 = CIRCLE ( 'NONE', #217, 8.816067218665006422 ) ;
#25 = FACE_OUTER_BOUND ( 'NONE', #23, .T. ) ;
#26 = EDGE_LOOP ( 'NONE', ( #388 ) ) ;
#27 = CARTESIAN_POINT ( 'NONE',  ( 0.000000000000000000, 6.253645949727799191, 0.000000000000000000 ) ) ;
#28 = EDGE_LOOP ( 'NONE', ( #386 ) ) ;
#29 = EDGE_CURVE ( 'NONE', #310, #310, #316, .T. ) ;
#30 = DIRECTION ( 'NONE',  ( 0.000000000000000000, 0.000000000000000000, 1.000000000000000000 ) ) ;
#31 = CARTESIAN_POINT ( 'NONE',  ( 0.000000000000000000, 5.204170427930421283E-15, 0.000000000000000000 ) ) ;
#32 = CARTESIAN_POINT ( 'NONE',  ( 0.000000000000000000, 9.003645949727816955, 0.000000000000000000 ) ) ;
#33 = ORIENTED_EDGE ( 'NONE', *, *, #366, .F. ) ;
#34 = DIRECTION ( 'NONE',  ( -0.000000000000000000, 1.000000000000000000, -0.000000000000000000 ) ) ;
#35 = CARTESIAN_POINT ( 'NONE',  ( 0.000000000000000000, 0.9750139512978862610, 0.000000000000000000 ) ) ;
#36 =( NAMED_UNIT ( * ) SI_UNIT ( $, .STERADIAN. ) SOLID_ANGLE_UNIT ( ) );
#37 = DIRECTION ( 'NONE',  ( 0.000000000000000000, 0.000000000000000000, 1.000000000000000000 ) ) ;
#38 = CIRCLE ( 'NONE', #387, 9.960784313725454808 ) ;
#39 = CARTESIAN_POINT ( 'NONE',  ( 0.000000000000000000, 7.003051141389605050, 0.000000000000000000 ) ) ;
#40 = CARTESIAN_POINT ( 'NONE',  ( 0.000000000000000000, 0.9750139512978862610, 9.960784313725454808 ) ) ;
#41 = ADVANCED_FACE ( 'NONE', ( #56, #25 ), #323, .T. ) ;
#42 = CARTESIAN_POINT ( 'NONE',  ( 0.000000000000000000, 8.317199464608167503, 8.816067218665006422 ) ) ;
#43 = CLOSED_SHELL ( 'NONE', ( #101, #128, #20, #193, #336, #41, #295, #176, #4, #81, #409, #315, #392, #137, #215, #219, #49, #75, #301 ) ) ;
#44 = VERTEX_POINT ( 'NONE', #198 ) ;
#45 = AXIS2_PLACEMENT_3D ( 'NONE', #2, #121, #30 ) ;
#46 = EDGE_LOOP ( 'NONE', ( #153 ) ) ;
#47 = CIRCLE ( 'NONE', #61, 6.500000000000000000 ) ;
#48 = FACE_OUTER_BOUND ( 'NONE', #82, .T. ) ;
#49 = ADVANCED_FACE ( 'NONE', ( #250, #294 ), #200, .T. ) ;
#50 = DIRECTION ( 'NONE',  ( -0.000000000000000000, 1.000000000000000000, -0.000000000000000000 ) ) ;
#51 = EDGE_CURVE ( 'NONE', #274, #274, #179, .T. ) ;
#52 = AXIS2_PLACEMENT_3D ( 'NONE', #242, #103, #199 ) ;
#53 =( LENGTH_UNIT ( ) NAMED_UNIT ( * ) SI_UNIT ( .MILLI., .METRE. ) );
#54 = ORIENTED_EDGE ( 'NONE', *, *, #162, .T. ) ;
#55 = DIRECTION ( 'NONE',  ( 0.000000000000000000, 0.000000000000000000, 1.000000000000000000 ) ) ;
#56 = FACE_OUTER_BOUND ( 'NONE', #119, .T. ) ;
#57 = ORIENTED_EDGE ( 'NONE', *, *, #133, .F. ) ;
#58 = AXIS2_PLACEMENT_3D ( 'NONE', #308, #406, #405 ) ;
#59 = UNCERTAINTY_MEASURE_WITH_UNIT (LENGTH_MEASURE( 1.000000000000000082E-05 ), #97, 'distance_accuracy_value', 'NONE');
#60 = CARTESIAN_POINT ( 'NONE',  ( 0.000000000000000000, 12.99999999999999822, 0.000000000000000000 ) ) ;
#61 = AXIS2_PLACEMENT_3D ( 'NONE', #298, #367, #132 ) ;
#62 = EDGE_CURVE ( 'NONE', #241, #241, #181, .T. ) ;
#63 = ORIENTED_EDGE ( 'NONE', *, *, #397, .T. ) ;
#64 = EDGE_LOOP ( 'NONE', ( #348 ) ) ;
#65 = DIRECTION ( 'NONE',  ( 0.000000000000000000, 0.000000000000000000, 1.000000000000000000 ) ) ;
#66 = EDGE_LOOP ( 'NONE', ( #63 ) ) ;
#67 = DIRECTION ( 'NONE',  ( -0.000000000000000000, 1.000000000000000000, -0.000000000000000000 ) ) ;
#68 = DIRECTION ( 'NONE',  ( 0.000000000000000000, 0.000000000000000000, 1.000000000000000000 ) ) ;
#69 = CARTESIAN_POINT ( 'NONE',  ( 0.000000000000000000, 12.00364594972770149, 0.000000000000000000 ) ) ;
#70 = FACE_OUTER_BOUND ( 'NONE', #317, .T. ) ;
#71 = CARTESIAN_POINT ( 'NONE',  ( 0.000000000000000000, 10.50364594972774057, 6.499999999999999112 ) ) ;
#72 =( NAMED_UNIT ( * ) SI_UNIT ( $, .STERADIAN. ) SOLID_ANGLE_UNIT ( ) );
#73 = DIRECTION ( 'NONE',  ( 0.000000000000000000, 0.000000000000000000, 1.000000000000000000 ) ) ;
#74 = VERTEX_POINT ( 'NONE', #371 ) ;
#75 = ADVANCED_FACE ( 'NONE', ( #96, #263 ), #127, .T. ) ;
#76 = CARTESIAN_POINT ( 'NONE',  ( 0.000000000000000000, 9.003645949727816955, 0.000000000000000000 ) ) ;
#77 = CARTESIAN_POINT ( 'NONE',  ( 0.000000000000000000, 12.99999999999999645, 1.772613503757044073 ) ) ;
#78 = AXIS2_PLACEMENT_3D ( 'NONE', #419, #327, #93 ) ;
#79 = DIRECTION ( 'NONE',  ( 0.000000000000000000, 0.000000000000000000, 1.000000000000000000 ) ) ;
#80 = CONICAL_SURFACE ( 'NONE', #344, 3.795452214305626182, 1.483529864195155978 ) ;
#81 = ADVANCED_FACE ( 'NONE', ( #194, #165 ), #80, .T. ) ;
#82 = EDGE_LOOP ( 'NONE', ( #188 ) ) ;
#83 = EDGE_LOOP ( 'NONE', ( #150 ) ) ;
#84 = EDGE_CURVE ( 'NONE', #304, #304, #264, .T. ) ;
#85 = EDGE_LOOP ( 'NONE', ( #328 ) ) ;
#86 = FACE_OUTER_BOUND ( 'NONE', #28, .T. ) ;
#87 = EDGE_LOOP ( 'NONE', ( #411 ) ) ;
#88 = PLANE ( 'NONE',  #131 ) ;
#89 = EDGE_LOOP ( 'NONE', ( #312 ) ) ;
#90 = CONICAL_SURFACE ( 'NONE', #78, 1.772613503757044073, 1.483529864195208159 ) ;
#91 = DIRECTION ( 'NONE',  ( 0.000000000000000000, 0.000000000000000000, 1.000000000000000000 ) ) ;
#92 = EDGE_LOOP ( 'NONE', ( #251 ) ) ;
#93 = DIRECTION ( 'NONE',  ( 0.000000000000000000, 0.000000000000000000, -1.000000000000000000 ) ) ;
#94 = EDGE_LOOP ( 'NONE', ( #275 ) ) ;
#95 = FACE_BOUND ( 'NONE', #226, .T. ) ;
#96 = FACE_OUTER_BOUND ( 'NONE', #357, .T. ) ;
#97 =( LENGTH_UNIT ( ) NAMED_UNIT ( * ) SI_UNIT ( .MILLI., .METRE. ) );
#98 = FACE_OUTER_BOUND ( 'NONE', #284, .T. ) ;
#99 = AXIS2_PLACEMENT_3D ( 'NONE', #27, #355, #147 ) ;
#100 = CARTESIAN_POINT ( 'NONE',  ( 0.000000000000000000, 12.65000000000000391, 0.000000000000000000 ) ) ;
#101 = ADVANCED_FACE ( 'NONE', ( #98, #5 ), #130, .T. ) ;
#102 = VERTEX_POINT ( 'NONE', #135 ) ;
#103 = DIRECTION ( 'NONE',  ( -0.000000000000000000, 1.000000000000000000, -0.000000000000000000 ) ) ;
#104 = STYLED_ITEM ( 'NONE', ( #267 ), #363 ) ;
#105 = VERTEX_POINT ( 'NONE', #337 ) ;
#106 = VERTEX_POINT ( 'NONE', #370 ) ;
#107 = FACE_BOUND ( 'NONE', #138, .T. ) ;
#108 = EDGE_LOOP ( 'NONE', ( #178 ) ) ;
#109 = CARTESIAN_POINT ( 'NONE',  ( 0.000000000000000000, 12.00364594972770149, 4.000000000000017764 ) ) ;
#110 = DIRECTION ( 'NONE',  ( -0.000000000000000000, 1.000000000000000000, -0.000000000000000000 ) ) ;
#111 = CARTESIAN_POINT ( 'NONE',  ( 0.000000000000000000, 9.500000000000001776, 0.000000000000000000 ) ) ;
#112 = CYLINDRICAL_SURFACE ( 'NONE', #339, 6.499999999999999112 ) ;
#113 = CYLINDRICAL_SURFACE ( 'NONE', #291, 4.000000000000017764 ) ;
#114 = CARTESIAN_POINT ( 'NONE',  ( 0.000000000000000000, 12.65000000000000391, 0.000000000000000000 ) ) ;
#115 = CARTESIAN_POINT ( 'NONE',  ( 0.000000000000000000, 11.24026322094026220, 0.000000000000000000 ) ) ;
#116 = EDGE_LOOP ( 'NONE', ( #13 ) ) ;
#117 = DIRECTION ( 'NONE',  ( 0.000000000000000000, -1.000000000000000000, 0.000000000000000000 ) ) ;
#118 = ORIENTED_EDGE ( 'NONE', *, *, #265, .T. ) ;
#119 = EDGE_LOOP ( 'NONE', ( #350 ) ) ;
#120 = EDGE_CURVE ( 'NONE', #74, #74, #47, .T. ) ;
#121 = DIRECTION ( 'NONE',  ( -0.000000000000000000, 1.000000000000000000, -0.000000000000000000 ) ) ;
#122 = PRODUCT_CONTEXT ( 'NONE', #225, 'mechanical' ) ;
#123 = AXIS2_PLACEMENT_3D ( 'NONE', #35, #67, #365 ) ;
#124 = EDGE_LOOP ( 'NONE', ( #254 ) ) ;
#125 = DIRECTION ( 'NONE',  ( -0.000000000000000000, 1.000000000000000000, -0.000000000000000000 ) ) ;
#126 = AXIS2_PLACEMENT_3D ( 'NONE', #220, #383, #287 ) ;
#127 = CYLINDRICAL_SURFACE ( 'NONE', #395, 10.95000029346400083 ) ;
#128 = ADVANCED_FACE ( 'NONE', ( #70, #334 ), #186, .F. ) ;
#129 = FILL_AREA_STYLE ('',( #158 ) ) ;
#130 = CYLINDRICAL_SURFACE ( 'NONE', #356, 10.15000029346369637 ) ;
#131 = AXIS2_PLACEMENT_3D ( 'NONE', #60, #117, #151 ) ;
#132 = DIRECTION ( 'NONE',  ( 0.000000000000000000, 0.000000000000000000, 1.000000000000000000 ) ) ;
#133 = EDGE_CURVE ( 'NONE', #238, #238, #146, .T. ) ;
#134 = VERTEX_POINT ( 'NONE', #42 ) ;
#135 = CARTESIAN_POINT ( 'NONE',  ( 0.000000000000000000, 5.204170427930421283E-15, 9.960784313725454808 ) ) ;
#136 = DIRECTION ( 'NONE',  ( -0.000000000000000000, 1.000000000000000000, -0.000000000000000000 ) ) ;
#137 = ADVANCED_FACE ( 'NONE', ( #183 ), #88, .F. ) ;
#138 = EDGE_LOOP ( 'NONE', ( #118 ) ) ;
#139 = DIRECTION ( 'NONE',  ( -0.000000000000000000, 1.000000000000000000, -0.000000000000000000 ) ) ;
#140 = PRODUCT_DEFINITION_CONTEXT ( 'detailed design', #290, 'design' ) ;
#141 = DIRECTION ( 'NONE',  ( 0.000000000000000000, 0.000000000000000000, -1.000000000000000000 ) ) ;
#142 = CARTESIAN_POINT ( 'NONE',  ( 0.000000000000000000, 12.65000000000000391, 0.000000000000000000 ) ) ;
#143 = DIRECTION ( 'NONE',  ( -0.000000000000000000, 1.000000000000000000, -0.000000000000000000 ) ) ;
#144 = AXIS2_PLACEMENT_3D ( 'NONE', #212, #346, #243 ) ;
#145 = EDGE_LOOP ( 'NONE', ( #362 ) ) ;
#146 = CIRCLE ( 'NONE', #99, 12.40000029346370525 ) ;
#147 = DIRECTION ( 'NONE',  ( 0.000000000000000000, 0.000000000000000000, 1.000000000000000000 ) ) ;
#148 = EDGE_CURVE ( 'NONE', #338, #338, #163, .T. ) ;
#149 = DIRECTION ( 'NONE',  ( -0.000000000000000000, 1.000000000000000000, -0.000000000000000000 ) ) ;
#150 = ORIENTED_EDGE ( 'NONE', *, *, #397, .F. ) ;
#151 = DIRECTION ( 'NONE',  ( 0.000000000000000000, -0.000000000000000000, -1.000000000000000000 ) ) ;
#152 = PRODUCT_DEFINITION ( 'UNKNOWN', '', #206, #140 ) ;
#153 = ORIENTED_EDGE ( 'NONE', *, *, #270, .F. ) ;
#154 = CARTESIAN_POINT ( 'NONE',  ( 0.000000000000000000, 3.200000000000005063, 0.000000000000000000 ) ) ;
#155 = ORIENTED_EDGE ( 'NONE', *, *, #133, .T. ) ;
#156 = CIRCLE ( 'NONE', #297, 10.95000029346401149 ) ;
#157 = CARTESIAN_POINT ( 'NONE',  ( 0.000000000000000000, 12.65000000000000391, 0.000000000000000000 ) ) ;
#158 = FILL_AREA_STYLE_COLOUR ( '', #369 ) ;
#159 = DIRECTION ( 'NONE',  ( 0.000000000000000000, 0.000000000000000000, 1.000000000000000000 ) ) ;
#160 = AXIS2_PLACEMENT_3D ( 'NONE', #325, #289, #255 ) ;
#161 = DIRECTION ( 'NONE',  ( 0.000000000000000000, 0.000000000000000000, -1.000000000000000000 ) ) ;
#162 = EDGE_CURVE ( 'NONE', #106, #106, #378, .T. ) ;
#163 = CIRCLE ( 'NONE', #410, 6.499999999999999112 ) ;
#164 = FACE_OUTER_BOUND ( 'NONE', #145, .T. ) ;
#165 = FACE_BOUND ( 'NONE', #64, .T. ) ;
#166 = VERTEX_POINT ( 'NONE', #167 ) ;
#167 = CARTESIAN_POINT ( 'NONE',  ( 0.000000000000000000, 8.003645949727806297, 12.40000029346370525 ) ) ;
#168 = CYLINDRICAL_SURFACE ( 'NONE', #52, 9.960784313725454808 ) ;
#169 = DIRECTION ( 'NONE',  ( -0.000000000000000000, 1.000000000000000000, -0.000000000000000000 ) ) ;
#170 = VERTEX_POINT ( 'NONE', #10 ) ;
#171 = CIRCLE ( 'NONE', #401, 3.795452214305626182 ) ;
#172 = CARTESIAN_POINT ( 'NONE',  ( 0.000000000000000000, 12.99999999999999645, 0.000000000000000000 ) ) ;
#173 = FACE_OUTER_BOUND ( 'NONE', #85, .T. ) ;
#174 = FACE_OUTER_BOUND ( 'NONE', #185, .T. ) ;
#175 = FACE_OUTER_BOUND ( 'NONE', #116, .T. ) ;
#176 = ADVANCED_FACE ( 'NONE', ( #412, #86 ), #413, .T. ) ;
#177 = PRESENTATION_LAYER_ASSIGNMENT (  '', '', ( #104 ) ) ;
#178 = ORIENTED_EDGE ( 'NONE', *, *, #396, .F. ) ;
#179 = CIRCLE ( 'NONE', #321, 4.000000000000017764 ) ;
#180 = EDGE_CURVE ( 'NONE', #105, #105, #171, .T. ) ;
#181 = CIRCLE ( 'NONE', #307, 10.15000029346369637 ) ;
#182 = EDGE_LOOP ( 'NONE', ( #292 ) ) ;
#183 = FACE_OUTER_BOUND ( 'NONE', #417, .T. ) ;
#184 = AXIS2_PLACEMENT_3D ( 'NONE', #300, #8, #268 ) ;
#185 = EDGE_LOOP ( 'NONE', ( #155 ) ) ;
#186 = CONICAL_SURFACE ( 'NONE', #211, 10.15000029346369637, 1.249283714599710438 ) ;
#187 = DIRECTION ( 'NONE',  ( 0.000000000000000000, 0.000000000000000000, -1.000000000000000000 ) ) ;
#188 = ORIENTED_EDGE ( 'NONE', *, *, #366, .T. ) ;
#189 = EDGE_LOOP ( 'NONE', ( #12 ) ) ;
#190 = ORIENTED_EDGE ( 'NONE', *, *, #381, .F. ) ;
#191 = DIRECTION ( 'NONE',  ( 0.000000000000000000, -1.000000000000000000, 0.000000000000000000 ) ) ;
#192 =( GEOMETRIC_REPRESENTATION_CONTEXT ( 3 ) GLOBAL_UNCERTAINTY_ASSIGNED_CONTEXT ( ( #252 ) ) GLOBAL_UNIT_ASSIGNED_CONTEXT ( ( #53, #21, #380 ) ) REPRESENTATION_CONTEXT ( 'NONE', 'WORKASPACE' ) );
#193 = ADVANCED_FACE ( 'NONE', ( #249, #222 ), #377, .T. ) ;
#194 = FACE_OUTER_BOUND ( 'NONE', #320, .T. ) ;
#195 = EDGE_CURVE ( 'NONE', #205, #205, #244, .T. ) ;
#196 = CIRCLE ( 'NONE', #45, 9.960784313725454808 ) ;
#197 = CARTESIAN_POINT ( 'NONE',  ( 0.000000000000000000, 7.003051141389605050, 0.000000000000000000 ) ) ;
#198 = CARTESIAN_POINT ( 'NONE',  ( 0.000000000000000000, 12.80512893228807059, 4.000000000000017764 ) ) ;
#199 = DIRECTION ( 'NONE',  ( 0.000000000000000000, 0.000000000000000000, 1.000000000000000000 ) ) ;
#200 = CONICAL_SURFACE ( 'NONE', #123, 9.960784313725454808, 0.4183494090366978169 ) ;
#201 = DIRECTION ( 'NONE',  ( 0.000000000000000000, 0.000000000000000000, 1.000000000000000000 ) ) ;
#202 = PRODUCT ( '2012340', '2012340', '', ( #122 ) ) ;
#203 = PLANE ( 'NONE',  #318 ) ;
#204 = CYLINDRICAL_SURFACE ( 'NONE', #17, 12.40000029346370525 ) ;
#205 = VERTEX_POINT ( 'NONE', #77 ) ;
#206 = PRODUCT_DEFINITION_FORMATION_WITH_SPECIFIED_SOURCE ( 'ANY', '', #202, .NOT_KNOWN. ) ;
#207 = DIRECTION ( 'NONE',  ( -0.000000000000000000, 1.000000000000000000, -0.000000000000000000 ) ) ;
#208 = COLOUR_RGB ( '',0.7529411764705882248, 0.7529411764705882248, 0.7529411764705882248 ) ;
#209 = CIRCLE ( 'NONE', #223, 9.000000000000000000 ) ;
#210 = VERTEX_POINT ( 'NONE', #40 ) ;
#211 = AXIS2_PLACEMENT_3D ( 'NONE', #39, #302, #187 ) ;
#212 = CARTESIAN_POINT ( 'NONE',  ( 0.000000000000000000, 8.003645949727806297, 0.000000000000000000 ) ) ;
#213 = CARTESIAN_POINT ( 'NONE',  ( 0.000000000000000000, 9.736700783706879747, 0.000000000000000000 ) ) ;
#214 = ORIENTED_EDGE ( 'NONE', *, *, #29, .T. ) ;
#215 = ADVANCED_FACE ( 'NONE', ( #237 ), #203, .T. ) ;
#216 = EDGE_LOOP ( 'NONE', ( #288 ) ) ;
#217 = AXIS2_PLACEMENT_3D ( 'NONE', #404, #110, #375 ) ;
#218 = UNCERTAINTY_MEASURE_WITH_UNIT (LENGTH_MEASURE( 1.000000000000000082E-05 ), #271, 'distance_accuracy_value', 'NONE');
#219 = ADVANCED_FACE ( 'NONE', ( #311, #164 ), #168, .T. ) ;
#220 = CARTESIAN_POINT ( 'NONE',  ( 0.000000000000000000, 9.736700783706879747, 0.000000000000000000 ) ) ;
#221 = ORIENTED_EDGE ( 'NONE', *, *, #265, .F. ) ;
#222 = FACE_BOUND ( 'NONE', #228, .T. ) ;
#223 = AXIS2_PLACEMENT_3D ( 'NONE', #111, #207, #79 ) ;
#224 = ORIENTED_EDGE ( 'NONE', *, *, #162, .F. ) ;
#225 = APPLICATION_CONTEXT ( 'automotive_design' ) ;
#226 = EDGE_LOOP ( 'NONE', ( #248 ) ) ;
#227 = DIRECTION ( 'NONE',  ( -0.000000000000000000, 1.000000000000000000, -0.000000000000000000 ) ) ;
#228 = EDGE_LOOP ( 'NONE', ( #221 ) ) ;
#229 = DIRECTION ( 'NONE',  ( -0.000000000000000000, 1.000000000000000000, -0.000000000000000000 ) ) ;
#230 = AXIS2_PLACEMENT_3D ( 'NONE', #352, #283, #55 ) ;
#231 = SURFACE_STYLE_USAGE ( .BOTH. , #359 ) ;
#232 = EDGE_CURVE ( 'NONE', #44, #44, #354, .T. ) ;
#233 = DIRECTION ( 'NONE',  ( -0.000000000000000000, 1.000000000000000000, -0.000000000000000000 ) ) ;
#234 = CARTESIAN_POINT ( 'NONE',  ( 0.000000000000000000, 9.736700783706879747, 6.294497662125638549 ) ) ;
#235 = CONICAL_SURFACE ( 'NONE', #407, 6.294497662125638549, 1.483529864195184622 ) ;
#236 = DIRECTION ( 'NONE',  ( -0.000000000000000000, 1.000000000000000000, -0.000000000000000000 ) ) ;
#237 = FACE_OUTER_BOUND ( 'NONE', #108, .T. ) ;
#238 = VERTEX_POINT ( 'NONE', #303 ) ;
#239 = FACE_OUTER_BOUND ( 'NONE', #87, .T. ) ;
#240 = FILL_AREA_STYLE_COLOUR ( '', #208 ) ;
#241 = VERTEX_POINT ( 'NONE', #345 ) ;
#242 = CARTESIAN_POINT ( 'NONE',  ( 0.000000000000000000, 12.65000000000000391, 0.000000000000000000 ) ) ;
#243 = DIRECTION ( 'NONE',  ( 0.000000000000000000, 0.000000000000000000, 1.000000000000000000 ) ) ;
#244 = CIRCLE ( 'NONE', #420, 1.772613503757044073 ) ;
#245 = DIRECTION ( 'NONE',  ( 0.000000000000000000, 0.000000000000000000, 1.000000000000000000 ) ) ;
#246 = AXIS2_PLACEMENT_3D ( 'NONE', #399, #68, #329 ) ;
#247 = DIRECTION ( 'NONE',  ( 0.000000000000000000, 0.000000000000000000, 1.000000000000000000 ) ) ;
#248 = ORIENTED_EDGE ( 'NONE', *, *, #195, .F. ) ;
#249 = FACE_OUTER_BOUND ( 'NONE', #414, .T. ) ;
#250 = FACE_OUTER_BOUND ( 'NONE', #256, .T. ) ;
#251 = ORIENTED_EDGE ( 'NONE', *, *, #29, .F. ) ;
#252 = UNCERTAINTY_MEASURE_WITH_UNIT (LENGTH_MEASURE( 1.000000000000000082E-05 ), #53, 'distance_accuracy_value', 'NONE');
#253 =( GEOMETRIC_REPRESENTATION_CONTEXT ( 3 ) GLOBAL_UNCERTAINTY_ASSIGNED_CONTEXT ( ( #218 ) ) GLOBAL_UNIT_ASSIGNED_CONTEXT ( ( #271, #272, #72 ) ) REPRESENTATION_CONTEXT ( 'NONE', 'WORKASPACE' ) );
#254 = ORIENTED_EDGE ( 'NONE', *, *, #51, .F. ) ;
#255 = DIRECTION ( 'NONE',  ( 0.000000000000000000, 0.000000000000000000, 1.000000000000000000 ) ) ;
#256 = EDGE_LOOP ( 'NONE', ( #190 ) ) ;
#257 = FACE_OUTER_BOUND ( 'NONE', #26, .T. ) ;
#258 = SURFACE_STYLE_FILL_AREA ( #129 ) ;
#259 = DIRECTION ( 'NONE',  ( 0.000000000000000000, 0.000000000000000000, 1.000000000000000000 ) ) ;
#260 = APPLICATION_PROTOCOL_DEFINITION ( 'draft international standard', 'automotive_design', 1998, #290 ) ;
#261 = MECHANICAL_DESIGN_GEOMETRIC_PRESENTATION_REPRESENTATION (  '', ( #374 ), #192 ) ;
#262 = CIRCLE ( 'NONE', #160, 10.95000029346399195 ) ;
#263 = FACE_OUTER_BOUND ( 'NONE', #89, .T. ) ;
#264 = CIRCLE ( 'NONE', #299, 9.000000000000000000 ) ;
#265 = EDGE_CURVE ( 'NONE', #134, #134, #24, .T. ) ;
#266 = CARTESIAN_POINT ( 'NONE',  ( 0.000000000000000000, 11.24026322094026220, 0.000000000000000000 ) ) ;
#267 = PRESENTATION_STYLE_ASSIGNMENT (( #231 ) ) ;
#268 = DIRECTION ( 'NONE',  ( 0.000000000000000000, 0.000000000000000000, -1.000000000000000000 ) ) ;
#269 =( GEOMETRIC_REPRESENTATION_CONTEXT ( 3 ) GLOBAL_UNCERTAINTY_ASSIGNED_CONTEXT ( ( #59 ) ) GLOBAL_UNIT_ASSIGNED_CONTEXT ( ( #97, #364, #36 ) ) REPRESENTATION_CONTEXT ( 'NONE', 'WORKASPACE' ) );
#270 = EDGE_CURVE ( 'NONE', #166, #166, #280, .T. ) ;
#271 =( LENGTH_UNIT ( ) NAMED_UNIT ( * ) SI_UNIT ( .MILLI., .METRE. ) );
#272 =( NAMED_UNIT ( * ) PLANE_ANGLE_UNIT ( ) SI_UNIT ( $, .RADIAN. ) );
#273 = DIRECTION ( 'NONE',  ( 0.000000000000000000, 0.000000000000000000, 1.000000000000000000 ) ) ;
#274 = VERTEX_POINT ( 'NONE', #109 ) ;
#275 = ORIENTED_EDGE ( 'NONE', *, *, #62, .T. ) ;
#276 = FACE_OUTER_BOUND ( 'NONE', #216, .T. ) ;
#277 = DIRECTION ( 'NONE',  ( 0.000000000000000000, 0.000000000000000000, 1.000000000000000000 ) ) ;
#278 = FACE_BOUND ( 'NONE', #390, .T. ) ;
#279 = FACE_OUTER_BOUND ( 'NONE', #189, .T. ) ;
#280 = CIRCLE ( 'NONE', #144, 12.40000029346370525 ) ;
#281 = FILL_AREA_STYLE ('',( #240 ) ) ;
#282 = CONICAL_SURFACE ( 'NONE', #342, 4.000000000000017764, 0.2617993877990644203 ) ;
#283 = DIRECTION ( 'NONE',  ( -0.000000000000000000, 1.000000000000000000, -0.000000000000000000 ) ) ;
#284 = EDGE_LOOP ( 'NONE', ( #1 ) ) ;
#285 = CARTESIAN_POINT ( 'NONE',  ( 0.000000000000000000, 10.50364594972774057, 0.000000000000000000 ) ) ;
#286 = ORIENTED_EDGE ( 'NONE', *, *, #180, .T. ) ;
#287 = DIRECTION ( 'NONE',  ( 0.000000000000000000, 0.000000000000000000, 1.000000000000000000 ) ) ;
#288 = ORIENTED_EDGE ( 'NONE', *, *, #332, .T. ) ;
#289 = DIRECTION ( 'NONE',  ( -0.000000000000000000, 1.000000000000000000, -0.000000000000000000 ) ) ;
#290 = APPLICATION_CONTEXT ( 'automotive_design' ) ;
#291 = AXIS2_PLACEMENT_3D ( 'NONE', #15, #139, #372 ) ;
#292 = ORIENTED_EDGE ( 'NONE', *, *, #120, .F. ) ;
#293 = DIRECTION ( 'NONE',  ( 0.000000000000000000, 0.000000000000000000, 1.000000000000000000 ) ) ;
#294 = FACE_BOUND ( 'NONE', #66, .T. ) ;
#295 = ADVANCED_FACE ( 'NONE', ( #276, #341 ), #235, .T. ) ;
#296 = DIRECTION ( 'NONE',  ( -0.000000000000000000, 1.000000000000000000, -0.000000000000000000 ) ) ;
#297 = AXIS2_PLACEMENT_3D ( 'NONE', #154, #358, #293 ) ;
#298 = CARTESIAN_POINT ( 'NONE',  ( 0.000000000000000000, 11.00364594972779919, 0.000000000000000000 ) ) ;
#299 = AXIS2_PLACEMENT_3D ( 'NONE', #32, #34, #159 ) ;
#300 = CARTESIAN_POINT ( 'NONE',  ( 0.000000000000000000, 8.317199464608167503, 0.000000000000000000 ) ) ;
#301 = ADVANCED_FACE ( 'NONE', ( #278, #48 ), #376, .F. ) ;
#302 = DIRECTION ( 'NONE',  ( 0.000000000000000000, -1.000000000000000000, 0.000000000000000000 ) ) ;
#303 = CARTESIAN_POINT ( 'NONE',  ( 0.000000000000000000, 6.253645949727799191, 12.40000029346370525 ) ) ;
#304 = VERTEX_POINT ( 'NONE', #373 ) ;
#305 = CARTESIAN_POINT ( 'NONE',  ( 0.000000000000000000, 12.80512893228807059, 0.000000000000000000 ) ) ;
#306 = CARTESIAN_POINT ( 'NONE',  ( 0.000000000000000000, 12.00364594972770149, 0.000000000000000000 ) ) ;
#307 = AXIS2_PLACEMENT_3D ( 'NONE', #197, #296, #3 ) ;
#308 = CARTESIAN_POINT ( 'NONE',  ( 0.000000000000000000, 3.903051141389604517, 0.000000000000000000 ) ) ;
#309 = CARTESIAN_POINT ( 'NONE',  ( 0.000000000000000000, 12.65000000000000391, 0.000000000000000000 ) ) ;
#310 = VERTEX_POINT ( 'NONE', #234 ) ;
#311 = FACE_OUTER_BOUND ( 'NONE', #83, .T. ) ;
#312 = ORIENTED_EDGE ( 'NONE', *, *, #381, .T. ) ;
#313 = FACE_OUTER_BOUND ( 'NONE', #46, .T. ) ;
#314 = AXIS2_PLACEMENT_3D ( 'NONE', #305, #136, #273 ) ;
#315 = ADVANCED_FACE ( 'NONE', ( #175, #173 ), #113, .T. ) ;
#316 = CIRCLE ( 'NONE', #126, 6.294497662125638549 ) ;
#317 = EDGE_LOOP ( 'NONE', ( #57 ) ) ;
#318 = AXIS2_PLACEMENT_3D ( 'NONE', #14, #400, #340 ) ;
#319 = DIRECTION ( 'NONE',  ( 0.000000000000000000, 0.000000000000000000, 1.000000000000000000 ) ) ;
#320 = EDGE_LOOP ( 'NONE', ( #324 ) ) ;
#321 = AXIS2_PLACEMENT_3D ( 'NONE', #69, #229, #398 ) ;
#322 = DIRECTION ( 'NONE',  ( -0.000000000000000000, 1.000000000000000000, -0.000000000000000000 ) ) ;
#323 = CYLINDRICAL_SURFACE ( 'NONE', #389, 9.000000000000000000 ) ;
#324 = ORIENTED_EDGE ( 'NONE', *, *, #120, .T. ) ;
#325 = CARTESIAN_POINT ( 'NONE',  ( 0.000000000000000000, 3.903051141389604073, 0.000000000000000000 ) ) ;
#326 = EDGE_LOOP ( 'NONE', ( #286 ) ) ;
#327 = DIRECTION ( 'NONE',  ( 0.000000000000000000, -1.000000000000000000, 0.000000000000000000 ) ) ;
#328 = ORIENTED_EDGE ( 'NONE', *, *, #232, .F. ) ;
#329 = DIRECTION ( 'NONE',  ( 1.000000000000000000, 0.000000000000000000, 0.000000000000000000 ) ) ;
#330 = DIRECTION ( 'NONE',  ( -0.000000000000000000, 1.000000000000000000, -0.000000000000000000 ) ) ;
#331 = SHAPE_DEFINITION_REPRESENTATION ( #343, #363 ) ;
#332 = EDGE_CURVE ( 'NONE', #368, #368, #209, .T. ) ;
#333 = CONICAL_SURFACE ( 'NONE', #393, 9.000000000000000000, 0.2617993877991493523 ) ;
#334 = FACE_BOUND ( 'NONE', #94, .T. ) ;
#335 = CARTESIAN_POINT ( 'NONE',  ( 0.000000000000000000, 9.500000000000001776, 9.000000000000000000 ) ) ;
#336 = ADVANCED_FACE ( 'NONE', ( #107, #239 ), #333, .T. ) ;
#337 = CARTESIAN_POINT ( 'NONE',  ( 0.000000000000000000, 11.24026322094026220, 3.795452214305626182 ) ) ;
#338 = VERTEX_POINT ( 'NONE', #71 ) ;
#339 = AXIS2_PLACEMENT_3D ( 'NONE', #114, #50, #245 ) ;
#340 = DIRECTION ( 'NONE',  ( 0.000000000000000000, -0.000000000000000000, -1.000000000000000000 ) ) ;
#341 = FACE_BOUND ( 'NONE', #92, .T. ) ;
#342 = AXIS2_PLACEMENT_3D ( 'NONE', #306, #236, #201 ) ;
#343 = PRODUCT_DEFINITION_SHAPE ( 'NONE', 'NONE',  #152 ) ;
#344 = AXIS2_PLACEMENT_3D ( 'NONE', #266, #191, #161 ) ;
#345 = CARTESIAN_POINT ( 'NONE',  ( 0.000000000000000000, 7.003051141389605050, 10.15000029346369637 ) ) ;
#346 = DIRECTION ( 'NONE',  ( -0.000000000000000000, 1.000000000000000000, -0.000000000000000000 ) ) ;
#347 = DIRECTION ( 'NONE',  ( 0.000000000000000000, -1.000000000000000000, 0.000000000000000000 ) ) ;
#348 = ORIENTED_EDGE ( 'NONE', *, *, #180, .F. ) ;
#349 = FACE_OUTER_BOUND ( 'NONE', #182, .T. ) ;
#350 = ORIENTED_EDGE ( 'NONE', *, *, #84, .T. ) ;
#351 = MECHANICAL_DESIGN_GEOMETRIC_PRESENTATION_REPRESENTATION (  '', ( #104 ), #269 ) ;
#352 = CARTESIAN_POINT ( 'NONE',  ( 0.000000000000000000, 10.50364594972774057, 0.000000000000000000 ) ) ;
#353 = EDGE_LOOP ( 'NONE', ( #214 ) ) ;
#354 = CIRCLE ( 'NONE', #314, 4.000000000000017764 ) ;
#355 = DIRECTION ( 'NONE',  ( -0.000000000000000000, 1.000000000000000000, -0.000000000000000000 ) ) ;
#356 = AXIS2_PLACEMENT_3D ( 'NONE', #100, #233, #37 ) ;
#357 = EDGE_LOOP ( 'NONE', ( #33 ) ) ;
#358 = DIRECTION ( 'NONE',  ( -0.000000000000000000, 1.000000000000000000, -0.000000000000000000 ) ) ;
#359 = SURFACE_SIDE_STYLE ('',( #258 ) ) ;
#360 = ORIENTED_EDGE ( 'NONE', *, *, #195, .T. ) ;
#361 = FACE_OUTER_BOUND ( 'NONE', #124, .T. ) ;
#362 = ORIENTED_EDGE ( 'NONE', *, *, #396, .T. ) ;
#363 = ADVANCED_BREP_SHAPE_REPRESENTATION ( '2012340', ( #9, #246 ), #253 ) ;
#364 =( NAMED_UNIT ( * ) PLANE_ANGLE_UNIT ( ) SI_UNIT ( $, .RADIAN. ) );
#365 = DIRECTION ( 'NONE',  ( 0.000000000000000000, 0.000000000000000000, 1.000000000000000000 ) ) ;
#366 = EDGE_CURVE ( 'NONE', #170, #170, #262, .T. ) ;
#367 = DIRECTION ( 'NONE',  ( -0.000000000000000000, 1.000000000000000000, -0.000000000000000000 ) ) ;
#368 = VERTEX_POINT ( 'NONE', #335 ) ;
#369 = COLOUR_RGB ( '',0.7529411764705882248, 0.7529411764705882248, 0.7529411764705882248 ) ;
#370 = CARTESIAN_POINT ( 'NONE',  ( 0.000000000000000000, 3.903051141389604073, 10.15000029346369637 ) ) ;
#371 = CARTESIAN_POINT ( 'NONE',  ( 0.000000000000000000, 11.00364594972779919, 6.500000000000000000 ) ) ;
#372 = DIRECTION ( 'NONE',  ( 0.000000000000000000, 0.000000000000000000, 1.000000000000000000 ) ) ;
#373 = CARTESIAN_POINT ( 'NONE',  ( 0.000000000000000000, 9.003645949727816955, 9.000000000000000000 ) ) ;
#374 = STYLED_ITEM ( 'NONE', ( #408 ), #9 ) ;
#375 = DIRECTION ( 'NONE',  ( 0.000000000000000000, 0.000000000000000000, 1.000000000000000000 ) ) ;
#376 = PLANE ( 'NONE',  #58 ) ;
#377 = CONICAL_SURFACE ( 'NONE', #184, 8.816067218665006422, 1.483529864195217263 ) ;
#378 = CIRCLE ( 'NONE', #6, 10.15000029346369637 ) ;
#379 = SURFACE_STYLE_FILL_AREA ( #281 ) ;
#380 =( NAMED_UNIT ( * ) SI_UNIT ( $, .STERADIAN. ) SOLID_ANGLE_UNIT ( ) );
#381 = EDGE_CURVE ( 'NONE', #403, #403, #156, .T. ) ;
#382 = DIRECTION ( 'NONE',  ( -0.000000000000000000, 1.000000000000000000, -0.000000000000000000 ) ) ;
#383 = DIRECTION ( 'NONE',  ( -0.000000000000000000, 1.000000000000000000, -0.000000000000000000 ) ) ;
#384 = ORIENTED_EDGE ( 'NONE', *, *, #332, .F. ) ;
#385 = DIRECTION ( 'NONE',  ( 0.000000000000000000, 0.000000000000000000, 1.000000000000000000 ) ) ;
#386 = ORIENTED_EDGE ( 'NONE', *, *, #148, .F. ) ;
#387 = AXIS2_PLACEMENT_3D ( 'NONE', #31, #227, #91 ) ;
#388 = ORIENTED_EDGE ( 'NONE', *, *, #232, .T. ) ;
#389 = AXIS2_PLACEMENT_3D ( 'NONE', #142, #149, #416 ) ;
#390 = EDGE_LOOP ( 'NONE', ( #224 ) ) ;
#391 = FACE_BOUND ( 'NONE', #326, .T. ) ;
#392 = ADVANCED_FACE ( 'NONE', ( #257, #95 ), #90, .T. ) ;
#393 = AXIS2_PLACEMENT_3D ( 'NONE', #76, #125, #65 ) ;
#394 = APPLICATION_PROTOCOL_DEFINITION ( 'draft international standard', 'automotive_design', 1998, #225 ) ;
#395 = AXIS2_PLACEMENT_3D ( 'NONE', #157, #330, #259 ) ;
#396 = EDGE_CURVE ( 'NONE', #102, #102, #38, .T. ) ;
#397 = EDGE_CURVE ( 'NONE', #210, #210, #196, .T. ) ;
#398 = DIRECTION ( 'NONE',  ( 0.000000000000000000, 0.000000000000000000, 1.000000000000000000 ) ) ;
#399 = CARTESIAN_POINT ( 'NONE',  ( 0.000000000000000000, 0.000000000000000000, 0.000000000000000000 ) ) ;
#400 = DIRECTION ( 'NONE',  ( 0.000000000000000000, -1.000000000000000000, 0.000000000000000000 ) ) ;
#401 = AXIS2_PLACEMENT_3D ( 'NONE', #115, #382, #319 ) ;
#402 = EDGE_LOOP ( 'NONE', ( #54 ) ) ;
#403 = VERTEX_POINT ( 'NONE', #18 ) ;
#404 = CARTESIAN_POINT ( 'NONE',  ( 0.000000000000000000, 8.317199464608167503, 0.000000000000000000 ) ) ;
#405 = DIRECTION ( 'NONE',  ( 0.000000000000000000, -0.000000000000000000, -1.000000000000000000 ) ) ;
#406 = DIRECTION ( 'NONE',  ( 0.000000000000000000, -1.000000000000000000, 0.000000000000000000 ) ) ;
#407 = AXIS2_PLACEMENT_3D ( 'NONE', #213, #347, #141 ) ;
#408 = PRESENTATION_STYLE_ASSIGNMENT (( #16 ) ) ;
#409 = ADVANCED_FACE ( 'NONE', ( #391, #361 ), #282, .T. ) ;
#410 = AXIS2_PLACEMENT_3D ( 'NONE', #285, #322, #247 ) ;
#411 = ORIENTED_EDGE ( 'NONE', *, *, #84, .F. ) ;
#412 = FACE_BOUND ( 'NONE', #353, .T. ) ;
#413 = CONICAL_SURFACE ( 'NONE', #230, 6.499999999999999112, 0.2617993877992922935 ) ;
#414 = EDGE_LOOP ( 'NONE', ( #418 ) ) ;
#415 = CARTESIAN_POINT ( 'NONE',  ( 0.000000000000000000, 3.903051141389604073, 0.000000000000000000 ) ) ;
#416 = DIRECTION ( 'NONE',  ( 0.000000000000000000, 0.000000000000000000, 1.000000000000000000 ) ) ;
#417 = EDGE_LOOP ( 'NONE', ( #360 ) ) ;
#418 = ORIENTED_EDGE ( 'NONE', *, *, #270, .T. ) ;
#419 = CARTESIAN_POINT ( 'NONE',  ( 0.000000000000000000, 12.99999999999999645, 0.000000000000000000 ) ) ;
#420 = AXIS2_PLACEMENT_3D ( 'NONE', #172, #11, #73 ) ;
ENDSEC;
END-ISO-10303-21;
